Give Kudos?
Are you sure you want to give kudos to puppercyhunkamo?

Add To Songbook?
Are you sure you want to add this song to your songbook?


694 bands | 2,382 songs
Search: Register FREE! | Login
Browse Songs:
Browse Bands:
Tool Panel
Discuss This Song

1 2 3 4 5





Worship/Christian Songs - I Have Decided To Follow Jesus (Chord)
Submitter: puppercyhunkamo (0) on 3/25/06
Month Views: 10 | Total Views: 17,611
Moderator: chazrobinson | Report This Song?
Song Tools

Comment

Songbook

Kudos

Show Chords

Print

I Have Decided To Follow Jesus (Scroll down for chord fingerings)


         A     G A           A     G  A
I have decided,    to follow Jesus
         D     C D           A     G  A
I have decided,    to follow Jesus
         A     G A           F#m7  D
I have decided,    to follow Jesus
           A    G A            A    G  A
No turning back,    no turning back


A                          G              D
----0---0----        ---------3----   -----2----
---3---------        ----------0---   -------3--
---2---------        ----------0---   -----1----
---1---------        --------1-----   -----0----
---0-----0---        -----------2--   ------0---

C                         
-------0-----             
--1----------
------0------
-----2-------
--------3----
------0------   

 
 Comments (click here to add a non-facebook comment)
Home | FAQs | Privacy | Terms | Contact
Top 100 Tab Sites