Give Kudos?
Are you sure you want to give kudos to EMRLDEYZS?

Add To Songbook?
Are you sure you want to add this song to your songbook?


695 bands | 2,383 songs
Search: Register FREE! | Login
Browse Songs:
Browse Bands:
Tool Panel
Discuss This Song

1 2 3 4 5



Watermark - Captivate Us (Chord)
Submitter: EMRLDEYZS (60) on 11/16/05 1 comment
Month Views: 26 | Total Views: 24,899
Moderator: kokapelli_72 | Report This Song?
Song Tools

Comment

Songbook

Kudos

Show Chords

Print

CAPO 1

INTRO:
 
E|-----------------------------------------------------------| 
B|--9-----9-8-----8-6--------6-----3-----3-1-----0-----0-----| 
G|----0-------0--------0---0---------0-------0-------0---0---| 
D|------0-------0--------0-------------0-------0---0---------| 
A|--8-------6-------3--------------2-------0-----------------| 
E|-----------------------------------------------3---------0-| 

E|-------------------------------------------------------3---|
B|--9-----9-8-----8-6--------6-----3-----3-1-----0-----0-----| 
G|----0-------0--------0---0---------0-------0-------0-------| 
D|------0-------0--------0-------------0-------0---0---------| 
A|--8-------6-------3--------------2-------0-----------------| 
E|-----------------------------------------------3-----------|

 
VERSE:

G            D/F#               Em                Em7  
Your face is beautiful and your eyes are like the stars 
Cadd9                  G/B     Cadd9            Dadd4  Cadd9
Your gentle hands have healing there inside the scars 
G                     D/F#                  Em                 Em7
Your loving arms they draw me near and your smile it brings me peace 
Cadd9          G/B                  Cadd9  Dadd4   Gadd11            
Draw me closer oh my Lord,  Draw me closer Lord to Thee 


CHORUS:

        Cadd9    D          Bm11            Em7
And captivate us Lord Jesus set our eyes on You  
    Cadd9              D                G  add11 G
Devastate us with your presence falling down 
            Cadd9         D           Bm11                     Em7        
And rushing river draw us nearer holy fountain consume us with You 
     Cadd9        D          intro:   
Captivate us Lord Jesus with You 

E|-----------------------------------------------------------| 
B|--9-----9-8-----8-6--------6-----3-----3-1-----0-----0-----| 
G|----0-------0--------0---0---------0-------0-------0---0---| 
D|------0-------0--------0-------------0-------0---0---------| 
A|--8-------6-------3--------------2-------0-----------------| 
E|-----------------------------------------------3---------0-|



VERSE: 

G             D/F#              Em                Em7  
Your voice is powerful and Your words are radiant bright 
Cadd9              G/B            Cadd9          Dadd4  Cadd9
In Your breath and shadow, I will come close and abide 
G                    D/F#                 Em            Em7  
You whisper love and life divine and Your fellowship is free 
Cadd9          G/B                 Cadd9  Dadd4   G add11 G 
Draw us closer oh my Lord, Draw me closer Lord to thee

 

CHORUS:

        Cadd9    D          Bm11            Em7
And captivate us Lord Jesus set our eyes on You  
    Cadd9              D                G  add11 G
Devastate us with your presence falling down 
            Cadd9         D           Bm11                     Em7        
And rushing river draw us nearer holy fountain consume us with You 
     Cadd9        D          G   
Captivate us Lord Jesus with You 

BRIDGE:
 
             Cadd9                D                    
And let everything be lost in the shadows 
       Dsus2/Bb  Dsus2/A  G
Of the light     of your  face
              Cadd9           D
And let every chain be broken from me 
       Dsus2/Bb  Dsus2/A   G
As I'm bound     in Your   grace 
         Cadd9             D     
For Your yoke is easy Your burden is light 
       G       D/F#   Em        Em7 
You're full of wisdom power and might
          Am       G           
And every eye will see You 

CHORUS:

        Cadd9    D          Bm11            Em7
And captivate us Lord Jesus set our eyes on You  
    Cadd9              D                G  add11 G
Devastate us with your presence falling down 
            Cadd9         D           Bm11                     Em7        
And rushing river draw us nearer holy fountain consume us with You 
     Cadd9        D          Cadd9  G   
Captivate us Lord Jesus with You 
         Am                     D          Cadd9  G 
And captivate captivate us Lord Jesus with You 
     Cadd9   D
Captivate us  



OUTRO:


E|-----------------------------------------------------------| 
B|--9-----9-8-----8-6--------6-----3-----3-1-----0-----0-----| 
G|----0-------0--------0---0---------0-------0-------0---0---| 
D|------0-------0--------0-------------0-------0---0---------| 
A|--8-------6-------3--------------2-------0-----------------| 
E|-----------------------------------------------3---------0-| 

E|-------------------------------------------------------3---|
B|--9-----9-8-----8-6--------6-----3-----3-1-----0-----0-----| 
G|----0-------0--------0---0---------0-------0-------0-------| 
D|------0-------0--------0-------------0-------0---0---------| 
A|--8-------6-------3--------------2-------0-----------------| 
E|-----------------------------------------------3-----------|


 Chords used:

G        320033
Gadd11   320013 
G/B      x20033
D/F#     2x0232
Cadd9    x32030
Dadd4    x54040
Em7      022030
Bm11     x2x23x
Dsus2/Bb x10230 
Dsus2/A  x00230

the rest of the chords you should know 
 Comments (click here to add a non-facebook comment)
Great job on Lyric Sheet.

I wanted to suggest a few chord progression performance related items here: In the last bars of the bridge, the lyrics are "and every eye will see You" - the first chord is an F Major and then doing a Gsus-G resolution on the end of word "you."

I also noticed that there is a walk up in the final phrase of the song with the "Captivate us Lord Jesus with You" (repeats). The walk up starts on the word "You" with Em - D/F# - G - G/B and it happens both times.

I just wanted to add these if anyone was wondering why they couldn't quite get the last little piece of the song to match up.

Thanks for your time in working this out. It can be more confusing than most would think when you sit down and start charting lyrics and chords.
-kokapelli_72 | 12/10/2015
Home | FAQs | Privacy | Terms | Contact
Top 100 Tab Sites