Give Kudos?
Are you sure you want to give kudos to BrianEarlHaines?

Add To Songbook?
Are you sure you want to add this song to your songbook?


695 bands | 2,383 songs
Search: Register FREE! | Login
Browse Songs:
Browse Bands:
Tool Panel
Discuss This Song

1 2 3 4 5



Thousand Foot Krutch - Favorite Disease (Bass)
Submitter: BrianEarlHaines (5) on 8/5/09
Month Views: 3 | Total Views: 2,325
Help! We need a moderator for this artist. | Report This Song?
Song Tools

Comment

Songbook

Kudos

Show Chords

Print

Artist: Favorite Disease
Title: Thousand Foot Krutch
Transcribed By: Brian Earl Haines

Drop D Tuning

Verse:
|----------------|----------------|----------|-3----3-5----|
|----------------|----------------|----------|----3------5\|
|-5--5--5--------|-3--3--3--------|-1--1--1--|-------------|
|----------3-5-3-|----------0-3-5-|----------|-------------|

Pre Chorus:
|-----------------|-----------------|----------------|----------------|
|-----------------|-----------------|----------------|----------------|
|-----------------|-----------------|----------------|1-1-1-1---------|
|-1-1-1-1-1-1-1-1-|-3h5-5-5-3h5-5-5-|3-3-3-3-3-3-3-3-|--------3-3-3-3-|

Chorus:
|-----------------|-----------------|----------------|----------------|
|-----------------|-----------------|----------------|----------------|
|-----------------|-1-1-1-1---------|----------------|1-1-1-1-3-3-3-3-|
|-5-5-5-5-1-1-1-1-|---------3-3-3-3-|5-5-5-5-1-1-1-1-|----------------|

|-----------------|-----------------|----------------|----------------|
|-----------------|-----------------|----------------|----------------|
|-----------------|---------1-1-1-1-|----------------|1-1-1-1---------|
|-5-5-5-5-1-1-1-1-|-3-3-3-3---------|5-5-5-5-1-1-1-1-|--------3-3-3-3-|

Bridge:
|-----------------|-----------------|----------------|----------------|
|-----------------|-----------------|----------------|----------------|
|-----------------|-----------------|1-1-1-1-1-1-1-1-|----------------|
|-5-5-5-5-5-5-5-5-|-1-1-1-1-1-1-1-1-|----------------|3-3-3-3-4-4-4-4-|

|-----------------|-----------------|----------------|----------------|
|-----------------|-----------------|----------------|----------------|
|-----------------|-----------------|1-1-1-1-1-1-1-1-|----------------|
|-5-5-5-5-5-5-5-5-|-1-1-1-1-1-1-1-1-|----------------|3-3-3-3-3-3-3-3-|


Order of Things:

Verse:  4x 
Bridge: 2x
Chorus: 1x
Verse:  3x 
Bridge: 2x
Chorus: 1x
Bridge: 1x end on 3rd fret low string
Chorus: omit 1st 4 bars then play 2nd half
Chorus: 2x end on 5th fret low string



 Comments (click here to add a non-facebook comment)
Home | FAQs | Privacy | Terms | Contact
Top 100 Tab Sites