Give Kudos?
Are you sure you want to give kudos to BrianEarlHaines?

Add To Songbook?
Are you sure you want to add this song to your songbook?


695 bands | 2,383 songs
Search: Register FREE! | Login
Browse Songs:
Browse Bands:
Tool Panel
Discuss This Song

1 2 3 4 5



Thousand Foot Krutch - Falls Apart (Bass)
Submitter: BrianEarlHaines (4) on 7/16/09
Month Views: 7 | Total Views: 2,550
Help! We need a moderator for this artist. | Report This Song?
Song Tools

Comment

Songbook

Kudos

Show Chords

Print

Artist: Thousand Foot Krutch
Title: Falls Apart
Transcribed By: Brian Earl Haines

The recording is a 5 string bass or a 4 string tuned down 2 full steps. 
This version is for a 4 string bass in standard tuning.

Intro:
|-------------------------|-------------------------|
|---------5h6-6-5-5-------|-------------------------|
|-3-----------------6--8--|-3-----------------------|
|----3h4------------------|----3h4--3h4-4-3-3-6--6--|

|-------------------------|-------------------------|
|---------5h6-5-----------|-------------------------|
|-3-------------6-6-8--8--|-3-----------------------|
|----3h4------------------|----3h4--3h4-4-3-3-6--6--|

|-----|-----|-----|-----|
|-----|-----|-----|-----|
|--3--|-----|--3--|-----|
|-----|--1--|-----|--1--|

Verse 1:
|-----|-----|-----|---7-|-----|-----|-----|---7-|
|-----|-----|-----|/8---|-----|-----|-----|/8---|
|--3--|-----|--3--|-----|--3--|-----|--3--|-----|
|-----|--1--|-----|-----|-----|--1--|-----|-----|

|----------------------|------------------------|
|----------------------|------------------------|
|--------------------6-|-8--8-8-----------------|
|-4--4-4--4--4--4-4----|---------6-6-6-6-6-6-6--|

Chorus:

|-------------------------|-------------------------|
|---------5h6-6-5-5-------|-------------------------|
|-3-----------------6--8--|-3-----------------------|
|----3h4------------------|----3h4--3h4-4-3-3-6--6--|

|-------------------------|-------------------------|
|---------5h6-5-----------|-------------------------|
|-3-------------6-6-8--8--|-3-----------------------|
|----3h4------------------|----3h4--3h4-4-3-3-6--6--|

|-------------------------|-----|-----|-----|-----|
|---------5h6-6-5-5-------|-----|-----|-----|-----|
|-3-----------------6--8--|--3--|-----|--3--|-----|
|----3h4------------------|-----|--1--|-----|--1--|

Transcribed By BrianEarlHaines  at  ChristianTabs.com


Verse 2:
|-----|-----|-----|---7-|-----|-----|-----|---7-|
|-----|-----|-----|/8---|-----|-----|-----|/8---|
|--3--|-----|--3--|-----|--3--|-----|--3--|-----|
|-----|--1--|-----|-----|-----|--1--|-----|-----|

|----------------------|------------------------|
|----------------------|------------------------|
|--------------------6-|-8--8-8-----------------|
|-4--4-4--4--4--4-4----|---------6-6-6-6-6-6-6--|

Chorus:

|-------------------------|-------------------------|
|---------5h6-6-5-5-------|-------------------------|
|-3-----------------6--8--|-3-----------------------|
|----3h4------------------|----3h4--3h4-4-3-3-6--6--|

|-------------------------|-------------------------|
|---------5h6-5-----------|-------------------------|
|-3-------------6-6-8--8--|-3-----------------------|
|----3h4------------------|----3h4--3h4-4-3-3-6--6--|

|-----------------------|-----------------------|
|------------------1-3--|------------------1-1--|
|-3--3-3--3--3-3-3------|-3--3-3--3--3-3-3------|
|-----------------------|-----------------------|

Bridge:

|-------------------|-------------------|
|-------------------|-------------------|
|-------------------|-------------------|
|-4-4-4-4--4-4-4-4--|-1-1-1-1--1-1-1-1--|

|-------------------|-------------------|
|-------------------|-------------------|
|-------------------|-------------------|
|-4-4-4-4--4-4-4-4--|-1-1-1-1--1-1-1-1--|

|-------------------|-------------------|
|-------------------|-------------------|
|----------------6--|-------------------|
|-4-4-4-4--4-4-4----|-1-1-1-1--1-1-1-1--|

|-------------------|-------------------|
|-------------------|-------------------|
|----------------6--|-------------------|
|-4-4-4-4--4-4-4----|-1-1-1-1--1-1-1-1--|


Chorus:

Cut Out First 8 Measures


|-------------------------|-------------------------|
|---------5h6-6-5-5-------|-------------------------|
|-3-----------------6--8--|-3-----------------------|
|----3h4------------------|----3h4--3h4-4-3-3-6--6--|

|-------------------------|-------------------------|----|
|---------5h6-5-----------|-------------------------|----|
|-3-------------6-6-8--8--|-3-----------------------|----|
|----3h4------------------|----3h4--3h4-4-3-3-6--6--|----|

|-------------------------|-------------------------|
|---------5h6-6-5-5-------|-------------------------|
|-3-----------------6--8--|-3-----------------------|
|----3h4------------------|----3h4--3h4-4-3-3-6--6--|

|-------------------------|-------------------------|
|---------5h6-5-----------|-------------------------|
|-3-------------6-6-8--8--|-3-----------------------|
|----3h4------------------|----3h4--3h4-4-3-3-6--6--|

|-------------------------|-------------------------|
|---------5h6-6-5-5-------|-------------------------|
|-3-----------------6--8--|-3-----------------------|
|----3h4------------------|----3h4--3h4-4-3-3-6--6--|

|-------------------------|-------------------------|
|---------5h6-5-----------|-------------------------|
|-3-------------6-6-8--8--|-3-----------------------|
|----3h4------------------|----3h4--3h4-4-3-3-6--6--|

|-----------------------|-----------------------|
|------------------1-3--|------------------1-1--|
|-3--3-3--3--3-3-3------|-3--3-3--3--3-3-3------|
|-----------------------|-----------------------|


 Comments (click here to add a non-facebook comment)
Home | FAQs | Privacy | Terms | Contact
Top 100 Tab Sites