Give Kudos?
Are you sure you want to give kudos to BrianEarlHaines?

Add To Songbook?
Are you sure you want to add this song to your songbook?


695 bands | 2,383 songs
Search: Register FREE! | Login
Browse Songs:
Browse Bands:
Tool Panel
Discuss This Song

1 2 3 4 5



Revive - Chorus Of The Saints W/ Riffs (Chord)
Submitter: BrianEarlHaines (20) on 5/21/09
Month Views: 9 | Total Views: 2,511
Help! We need a moderator for this artist. | Report This Song?
Song Tools

Comment

Songbook

Kudos

Show Chords

Print

Artist: Revive
Title: Chorus Of The Saints
Transcribed By: Brian Earl Haines

I am assuming the electric guitar in this is actually drop D tuning but
here is how to play with regular tuning like if you where just strumming
it on a acoustic guitar.

Very Beginning:

|-------10-12-|
|-10-12-------|
|-------------|
|-------------|
|-------------|
|-------------|


INTRO:
  Bm  F#m   G    D   Bm   F#m    G  A
|----------------2-2--|--------------------|
|----------------3-3--|--------------------|
|-4-4------------2-2--|-4-4------------2-2-|
|-4-4--4-4--5-5--0-0--|-4-4--4---4---5-2-2-|
|-2-2--4-4--5-5--0-0--|-2-2--4---4---5-0-0-|
|------2-2--3-3-------|------2-0-2-0-3-----|


RIFF:

|-2-2-------------2-2-|
|-3-3-------------3-3-|
|-2-2-------------2-2-|
|-0-0--4---4---5--0-0-|
|-0-0--4---4---5--0-0-|
|------2-0-2-0-3------|


VERSE 1:
Bm          A                 RIFF
There's the redeemed lost again
Bm            A                  RIFF
Confused with doubts and suffering
                   F#m  G           A
But if only they'd open up their eyes
            F#m             G            A
And see the beauty of their God, who has never left their side

CHORUS:
G           A             Bm              D 
This is the chorus of the saints, singing Hallelujah!
G      A             Bm
          Our God is faithful!
G           A             Bm              D 
This is the chorus of the saints, singing Hallelujah!
G      A             Bm
          Our God is faithful!

INTRO

VERSE 2:
Bm     A                     RIFF
We the redeemed are lost again
Bm             A                          RIFF
With misplaced trust and desire to complain
                 F#m  G         A
But if only we'd open up our eyes
            F#m           G            A
And see the beauty of our God, who has never left our side

CHORUS

BRIDGE:
   G    A       D
So open up your eyes
            Bm             A        D
And see the beauty of our God, who never left our side

CHORUS 2x

OUTRO:

  Bm  F#m   G    D   Bm   F#m    G  A
|----------------2-2--|--------------------|
|----------------3-3--|--------------------|
|-4-4------------2-2--|-4-4------------2-2-|
|-4-4--4-4--5-5--0-0--|-4-4--4---4---5-2-2-|
|-2-2--4-4--5-5--0-0--|-2-2--4---4---5-0-0-|
|------2-2--3-3-------|------2-0-2-0-3-----|

  Bm  F#m   G    D   Bm   F#m    G  D
|----------------2-2--|----------------2-2-|
|----------------3-3--|----------------3-3-|
|-4-4------------2-2--|-4-4------------2-2-|
|-4-4--4-4--5-5--0-0--|-4-4--4---4---5-0-0-|
|-2-2--4-4--5-5--0-0--|-2-2--4---4---5-0-0-|
|------2-2--3-3-------|------2-0-2-0-3-----|


 
 Comments (click here to add a non-facebook comment)
Home | FAQs | Privacy | Terms | Contact
Top 100 Tab Sites