Give Kudos?
Are you sure you want to give kudos to duckdawg?

Add To Songbook?
Are you sure you want to add this song to your songbook?


682 bands | 2,344 songs
Search: Register FREE! | Login
Browse Songs:
Browse Bands:
Tool Panel
Discuss This Song

1 2 3 4 5





Needtobreathe - Garden (Chord)
Submitter: duckdawg (5) on 9/3/09 2 comments
Month Views: 1,535 | Total Views: 69,061
Moderator: 1Micronesia | Report This Song?
Song Tools

Comment

Songbook

Kudos

Show Chords

Print

Watch the video http://www.youtube.com/watch?v=pBTtoOuZM1I

You can really see how Bear plays this by watching the video.
Bo plays his part Capo 3, gonna work on that next.



Intro & Verse
e|-------------------------------------------------------------------|
B|-------------------------------------------------------------------|
G|-------0-----0-----0-----0-----0-----0-----0----0------------------|
D|------0----------------------------------------0-------------------|
A|---2H3-----2-----3-----5-----7-----9-----2----3--------------------|
E|---------3-----5-----7-----8-----10-----3--------3-----------------|


Won't you take this cup from me
Cause fear has stolen all my sleep
If tomorrow means my death
I pray you'll save their souls with it


        C        G
Let the songs i sing
D            Em
Bring joy to you
        C       G              D
Let the words i say profess my love
        C       G
Let the notes i choose
        D        Em
Be your favorite tune
C             D             G C G
Father let my heart be after you

In this hour of doubt i see
But who i am is not just me
So give me strength to die myself
So love can live to tell the tale

        C        G
Let the songs i sing
D            Em
Bring joy to you
        C       G              D
Let the words i say profess my love
        C       G
Let the notes i choose
        D        Em
Be your favorite tune
C             D             G C G
Father let my heart be after you

C             D             G C G
Father let my heart be after you

        C        G
Let the songs i sing
D            Em
Bring joy to you
        C       G              D
Let the words i say profess my love
        C       G
Let the notes i choose
        D        Em
Be your favorite tune
C             D             G C G
Father let my heart be after you

Chords for Chorus (you could just play normal D and Em I think)

e|-----3--------------3-----------------0--------------0-------------|
B|-----1--------------0-----------------3--------------8-------------|
G|-----0--------------0-----------------0--------------0-------------|
D|-----2--------------0-----------------4--------------9-------------|
A|-----3--------------2-----------------5-------------10--------------|
E|--------------------3----------------------------------------------|
       C              G                 D             Em 
 Comments (click here to add a non-facebook comment)
Not buying your upgrade when I can get virtually everything else free and legal for my use. Just copied everyting down. Thanks.
-limestonegap | 1/19/2013
Ditto to the previous comment. And yes, a very big Thank you!!
-angrimes22 | 3/7/2014
Home | FAQs | Privacy | Terms | Contact
Top 100 Tab Sites