Give Kudos?
Are you sure you want to give kudos to justin8?

Add To Songbook?
Are you sure you want to add this song to your songbook?


693 bands | 2,380 songs
Search: Register FREE! | Login
Browse Songs:
Browse Bands:
Tool Panel
Discuss This Song

1 2 3 4 5





Mercy Me - I Can Only Imagine (Intro)
Submitter: justin8 (0) on 6/9/05 2 comments
Month Views: 16 | Total Views: 5,181
Moderator: chriscannon | Report This Song?
Song Tools

Comment

Songbook

Kudos

Show Chords

Print

I Can Only Imagine
MercyMe

This is nice to play on the accoustic guitar using 
clean reverb. enjoy!

E|--11-12-7-------7------7-----------5--
B|------------4-5----4h5---4-5---4-5----
G|-----------------------------6--------
D|--------------------------------------
A|--------------------------------------
E|--------------------------------------

just one more thing, be careful not to rush this and
practise it a bunch before you try to preform it somewhere
'cause if you can't play it smoothly then it doesn't sound
good at all!
 Comments (click here to add a non-facebook comment)
nice but i got a slight suggestion

E|--11-12-7---------7------7-------------5--
B|------------5-4-5----4h5---4-5---5-4-5----
G|-------------------------------6----------
D|------------------------------------------
A|------------------------------------------
E|------------------------------------------

just thought it sounded better
-god bless
-rice4lyfe90 | 9/5/2005
Hey yeah I think you might be right.
It seems to fill it out a little bit nicer.
Thanks for the suggestion!
-justin8 | 11/28/2005
Home | FAQs | Privacy | Terms | Contact
Top 100 Tab Sites