Give Kudos?
Are you sure you want to give kudos to chchgi7752?

Add To Songbook?
Are you sure you want to add this song to your songbook?


693 bands | 2,380 songs
Search: Register FREE! | Login
Browse Songs:
Browse Bands:
Tool Panel
Discuss This Song

1 2 3 4 5





Mercy Me - God Of Wonders..correct (Solo)
Submitter: chchgi7752 (0) on 3/27/06
Month Views: 11 | Total Views: 4,101
Moderator: chriscannon | Report This Song?
Song Tools

Comment

Songbook

Kudos

Show Chords

Print

Hey, I'm new at typing up tabs to try to bare with 
me as I pull through this. I know this is the right 
tab for it though.

Solo
e|--------------------------------------------------------|
B|--10h11-11-11-11p10-------------------------------------|
G|---------------------10~~/12\-10-10h12-12-12-12h10------|
D|--------------------------------------------------------|
A|--------------------------------------------------------|
E|--------------------------------------------------------|

e|--------------------------------------------------------|
B|--------------------------------------------------------|
G|--------------------------------------------------------|
D|---10~~10/12-12h13-13-13-13-13p11-----------------------|
A|----------------------------------13~~h15p13------------|
E|---------------------------------------------15--13-----|
Play it twice and then jump into the chords

Where it goes A string 13~~h15p13 im not sure if thats 
right. It might be 13~~/15\13 Test it out for yourself.
I play this tab with the song.
 Comments (click here to add a non-facebook comment)
Home | FAQs | Privacy | Terms | Contact
Top 100 Tab Sites