Give Kudos?
Are you sure you want to give kudos to GODsrvr?

Add To Songbook?
Are you sure you want to add this song to your songbook?


693 bands | 2,380 songs
Search: Register FREE! | Login
Browse Songs:
Browse Bands:
Tool Panel
Discuss This Song

1 2 3 4 5





Mercy Me - Coming Up To Breathe (Tab)
Submitter: GODsrvr (1) on 9/8/09
Month Views: 9 | Total Views: 2,466
Moderator: chriscannon | Report This Song?
Song Tools

Comment

Songbook

Kudos

Show Chords

Print

Coming Up to Breathe
By: Mercy Me

Tabbed by: G. Saunders

This is not exact but it does get you close to where you need to be for just 1 
guitar. Listen to the song & you'll figure it out. Not so sure about the bridge 
though--enjoy!

      h - hammer on 
      p - pull off 
      b - bend string up
      r - release bend
      / - slide up
      ~ - vibrato 


Intro:
E--3-5-5-5-5-5-5---5-5---3-5-5-5---------------------------------
B--3-5-5-5-5-5-5---5-5---3-5-5-5-10-10-10-10-10-10---------------
G--4-6-7-7-6-7-7p6-6-6---4-6-7-7-11-11-11-11-11-11---------------
D--5-7-7-7-7-7-7---7-7---5-7-7-7-12-12-12-12-12-12---------------
A----------------------------------------------------------------
E----------------------------------------------------------------

E--3-5-5-5-5-5-5---5-5---3-5-5-5---------------------------------
B--3-5-5-5-5-5-5---5-5---3-5-5-5-10-10-10----10------------------
G--4-6-7-7-6-7-7p6-6-6---4-6-7-7-11-11-11h12-11------------------
D--5-7-7-7-7-7-7---7-7---5-7-7-7-12-12-12----12------------------
A----------------------------------------------------------------
E----------------------------------------------------------------

E--------------------------
B--12--10--7--7-7-7-7---7--
G--11--9---7--7-7-7-7h8-7--  x4
D--9---7---7--7-7-7-7---7--
A--------------------------
E--------------------------

Verse 1:
     I'm in way...       
   G    A   Bm
E-----------------
B-----------------
G--7----9--11-----  x7
D--5----7--9------
A--5----7--9------
E-----------------

Pre chorus riff:
E-------------------------------------------------------------
B-------------------------------------------------------------
G----/7-7-7-9-9-9-7-7-7-9-9-9-7--7/9-9-9-11-11-12-12-11-9-----
D----/7-7-7-7-7-7-7-7-7-7-7-7-7--7/9-9-9---9-----9-----9------
A-------------------------------------------------------------
E-------------------------------------------------------------

Chorus:
Cause I'm...
   A  A   Bm    A   A   Bm  D  Em G G A  A   Bm  [Do this part of the intro twice]
E------------------------------------------------------------------
B--10-10--12----10--10--12---7-9-8-8--10-10--12---12-10-7-7-7-7-7---7--
G--9--9---11----9---9---11---7-9-7-7--9--9---11---11-9--7-7-7-7-7h8-7--
D--7--7---9-----7---7---9----7-9-5-5--7--7---9----9--7--7-7-7-7-7---7--
A--7--7---9-----7---7---9----5-7-5-5--7--7---9-------------------------
E----------------------------------------------------------------------

Verse 2:
     I just need...  
   G    A   Bm
E-----------------
B-----------------
G--7----9--11-----  x7
D--5----7--9------
A--5----7--9------
E-----------------

Pre chorus riff:
E-------------------------------------------------------------
B-------------------------------------------------------------
G----/7-7-7-9-9-9-7-7-7-9-9-9-7--7/9-9-9-11-11-12-12-11-9-----
D----/7-7-7-7-7-7-7-7-7-7-7-7-7--7/9-9-9---9-----9-----9------
A-------------------------------------------------------------
E-------------------------------------------------------------

Chorus:
 Cause I'm....
   A  A   Bm    A   A   Bm  D Em G G  A  A   Bm  Bm  
E----------------------------------------------------
B--10-10--12----10--10--12---7-9-8-8--10-10--12--12---
G--9--9---11----9---9---11---7-9-7-7--9--9---11--11---
D--7--7---9-----7---7---9----7-9-5-5--7--7---9---9---
A--7--7---9-----7---7---9----5-7-5-5--7--7---9---9---
E----------------------------------------------------

Bridge:
 I've done....
  F#m       G    F#m   G   Bm
E--5--------5-----5----5-------
B--7--------8-----7----8---12--
G--6--------7-----6----7---11--
D--4--------5-----4----5---9---
A--4--------5-----4----5---9---
E------------------------------

Transition riff (Part of Intro)
E--3-5-5-5-5-5-5---5-5---3-5-5-5----------------
B--3-5-5-5-5-5-5---5-5---3-5-5-5-10-10-10-10----
G--4-6-7-7-6-7-7p6-6-6---4-6-7-7-11-11-11-11----
D--5-7-7-7-7-7-7---7-7---5-7-7-7-12-12-12-12----
A-----------------------------------------------
E-----------------------------------------------

Chorus:
 Cause I'm.....
   A  A   Bm    A   A   Bm  D Em G G  A  A   Bm      
E---------------------------------------------------
B--10-10--12----10--10--12---7-9-8-8--10-10--12-----
G--9--9---11----9---9---11---7-9-7-7--9--9---11-----   x2
D--7--7---9-----7---7---9----7-9-5-5--7--7---9------
A--7--7---9-----7---7---9----5-7-5-5--7--7---9------
E---------------------------------------------------


Outro (Easier):
E--------------------------       ------------------------------------
B--12--10--7--7-7-7-7---7--       --12--10--7-7-7-7-------------------
G--11--9---7--7-7-7-7h8-7--  x3   --11--9---7-7-7-7h8p7h8p7h8p7h8p7~~-
D--9---7---7--7-7-7-7---7--       --9---7---7-7-7-7-------------------
A--------------------------       ------------------------------------
E--------------------------       ------------------------------------


Outro (Alternate, can also be used on intro as well):
E--------------------------------   ----------------------------------------------
B--16--14--11--11-11-11-11b12-11    -16--14--11--11-11-11b12r11b12r11b12r11b12r11~
G--16--14--12--12-12-12-12------- x3-16--14--12--12-12-12-----------------------
D--------------------------------   ----------------------------------------------
A--------------------------------   ----------------------------------------------
E--------------------------------   ----------------------------------------------

 Comments (click here to add a non-facebook comment)
Home | FAQs | Privacy | Terms | Contact
Top 100 Tab Sites