Give Kudos?
Are you sure you want to give kudos to dragin?

Add To Songbook?
Are you sure you want to add this song to your songbook?


693 bands | 2,380 songs
Search: Register FREE! | Login
Browse Songs:
Browse Bands:
Tool Panel
Discuss This Song

1 2 3 4 5





Kutless - We Fall Down (Tab)
Submitter: dragin (0) on 1/9/10
Month Views: 9 | Total Views: 4,756
Moderator: chriscannon | Report This Song?
Song Tools

Comment

Songbook

Kudos

Show Chords

Print



Kutless - We Fall Down
Tabbed By Dragin

             Intro:

e|--------------------|---------------|---------------|------------------|
B|-----7-10-8-7-7---7-|8-7-10-8-7---7-|8-7-10-8-7---7-|8-7-10-8-7---7----|
G|----7-7--------7-9--|---7------7-9--|---7------7-9--|---7------7-9-----|
D|--------------------|---------------|---------------|------------------|
A|--------------------|---------------|---------------|------------------|
E|--------------------|---------------|---------------|------------------|



      (power chords, rhythm guitar and bass come in at the same time)
       (Also chorus)
e|-------------------------------------------------|
B|-------------------------------------------------|
G|--5---------7------------------------------------|
D|--5-4x-5----7-8x-Repeat--------------------------|
A|--3----5-4x-5------------------------------------|
E|-------3-----------------------------------------|




Verse

  We fall down, We lay our crowns, at the feet of Jesus
  The greatness of, mercy and love,at the feet of Jesus
e|--------------------------------------------------------------------|
B|--------------------------------------------------------------------|
G|-----------------7----------------------5-------7-------------------|(repeat)
D|5-------5--------7-------5--------------5-------7-------------------|
A|5-------5--------5-------5--------------3-------5-------------------|
E|3-------3----------------3------------------------------------------|





         Solo:

e|--------------------|---------------|(bend)----------------------------|
B|-----7-10-8-7-7---7-|8-7-10-8-7---7-|7/\(7)5---------------------------|
G|----7-7--------7-9--|---7------7-9--|-------7(sl)4s(l)7(sl)4(sl)2------|
D|--------------------|---------------|----------------------------------|
A|--------------------|---------------|----------------------------------|
E|--------------------|---------------|----------------------------------|

                                             And we cry Holy, Holy, Holy

e|(bend)--------------------------------------------------------------|
B|7/\(7)5-----------(r hand tap)--------------------------------------|
G|-------7-4-0-4-7-11(7)14(7)19(7)18(7)16(7)14(7)12(7)11(7)(hold)-----|
D|--------------------------------------------------------------------|
A|--------------------------------------------------------------------|
E|--------------------------------------------------------------------|

                                          (rhythm fades in)
 (Accoustic) C     G     D                C     G     D
  And We cry Holy, Holy, Holy, And We cry Holy, Holy, Holy

             C     G     D               C     G     D   
  And We cry Holy, Holy, Holy,And We cry Holy, Holy, Holy,is the Lamb
                
           (Listen for timing)
e|---------------------------|---------------|---------------|------------------|
B|------------7-10-8-7-7---7-|8-7-10-8-7---7-|8-7-10-8-7-----|------------------|
G|-----------7-7--------7-9--|---7------7-9--|---7-----------|------------------|
D|---------------------------|---------------|---------------|------------------|
A|---------------------------|---------------|---------------|------------------|
E|---------------------------|---------------|---------------|------------------|










 Comments (click here to add a non-facebook comment)
Home | FAQs | Privacy | Terms | Contact
Top 100 Tab Sites