Give Kudos?
Are you sure you want to give kudos to puppercyhunkamo?

Add To Songbook?
Are you sure you want to add this song to your songbook?


694 bands | 2,382 songs
Search: Register FREE! | Login
Browse Songs:
Browse Bands:
Tool Panel
Discuss This Song

1 2 3 4 5





Kutless - Shut Me Out (Tab)
Album: Hearts of the Innocent (2006)
Submitter: puppercyhunkamo (0) on 4/3/06 1 comment
Month Views: 4 | Total Views: 2,801
Moderator: chriscannon | Report This Song?
Song Tools

Comment

Songbook

Kudos

Show Chords

Print

/=slide up
\=slide down

INTRO

  |  4x   |         |  4x   |        |  4x   |         |
Eb|-------|---------|-------|--------|-------|---------|
Bb|-------|---------|-------|--------|-------|---------|
Gb|-------|---------|-------|--------|-------|---------|
Db|-0---2-|--/-5--5-|-0---2-|--/7--7-|-0---2-|--/-5--5-|
Ab|-0---2-|--/-5--5-|-0---2-|--/7--7-|-0---2-|--/-5--5-|
Db|-0---2-|--/-5--5-|-0---2-|--/7--7-|-0---2-|--/-5--5-|

                           |its fast|
Eb|-------------------------|-------|-------|
Bb|-------------------------|-------|-------|
Gb|-------------------------|-------|-------|
Db|-10--10--10--10---5---7--|-7-\-5-|-5---7-|
Ab|-10--10--10--10---5---7--|-7-\-5-|-5---7-|
Db|-10--10--10--10---5---7--|-7-\-5-|-5---7-|


1ST SOLO
the little solo part that's next is:

Eb|---------------------------------------------|
Bb|---------------------------------------------|
Gb|---------------------------------------------|
Db|-14--14--12-------14--14--12--------------9--|
Ab|-------------10---------------12---9--10-----|
Db|---------------------------------------------|

i'm not sure if this is another guitar but...

Eb|-------|
Bb|-------|
Gb|-------|
Db|-7---0-|
Ab|-7---0-|  u ppl can probably figure out the strumming 'cause
Db|-7---0-|  i don't wanna tab it all out. :)
             

then ya do this part again. (except u quickly slide up to
the 9th fret (8-/-9)on the Ab string this time.)

2ND SOLO

i'm not sure on the power chords, but this is the solo.

Eb|-------7-------------------10--------------------7-----8--7-|
Bb|-8-----------8-------8------------8--------8----------------|
Gb|----9-----9-----9-------9------9-----9--------9-----9-------|
Db|------------------------------------------------------------|
Ab|------------------------------------------------------------|
Db|------------------------------------------------------------|

then play parts of this in the background.
then play the 1ST SOLO again.
then play the 2ND SOLO again.

they then play a bunch of power chords that i cannot provide.
then they do the intro and the comes the

3RD SOLO

Eb|-------------------------------------|
Bb|-12--10----------10------------------|
Gb|---------12--12------12--9--12--9--9-|
Db|-------------------------------------|
Ab|-------------------------------------|
Db|-------------------------------------|

Eb|-------------------------------------------------------------------------|
Bb|-12--10----------10--------------10--12----10--12-----10--12--13--12-----|
Gb|---------12--12------12--9--8/9---------9----------9------------------12-|
Db|-------------------------------------------------------------------------|
Ab|-------------------------------------------------------------------------|
Db|-------------------------------------------------------------------------|

Eb|-------------------|
Bb|----10--12-----10\-|
Gb|-9----------9------|
Db|-------------------|
Ab|-------------------|
Db|-------------------|

Eb|---------------------|
Bb|---------------------|
Gb|---------------------|
Db|-2--4--5--7--4--0--2-|
Ab|-2--4--5--7--4--0--2-|
Db|-2--4--5--7--4--0--2-| 
 Comments (click here to add a non-facebook comment)
great tab but its hearts of the innocent not shut me out, but good job!!
-jcool677 | 9/12/2008
Home | FAQs | Privacy | Terms | Contact
Top 100 Tab Sites