Give Kudos?
Are you sure you want to give kudos to bradjere?

Add To Songbook?
Are you sure you want to add this song to your songbook?


693 bands | 2,380 songs
Search: Register FREE! | Login
Browse Songs:
Browse Bands:
Tool Panel
Discuss This Song

1 2 3 4 5





Kutless - All Who Are Thirsty (Tab)
Album: Strong Tower (2005)
Submitter: bradjere (0) on 10/29/05
Month Views: 6 | Total Views: 5,186
Moderator: chriscannon | Report This Song?
Song Tools

Comment

Songbook

Kudos

Show Chords

Print

Kutless: Strong Tower
All Who Are Thirsty

(Intro & Solo)

e|--------------7-|--------------7-|----------------|
B|8-8-8-7-8-7-8---|8-8-8-7-8-7-8---|7-7-5-7-8-7-8---|
G|----------------|----------------|----------------|
D|----------------|----------------|----------------|
A|----------------|----------------|----------------|
E|----------------|----------------|----------------|

e|------5-/7-/8---|----------------|----------------|
B|7-7-5-----------|8-8-8-7-8-7-8-10|8-8-8-7-8-7-8-10|
G|----------------|----------------|----------------|
D|----------------|----------------|----------------|
A|----------------|----------------|----------------|
E|----------------|----------------|----------------|

e|---------------------------------10---------------|
B|(10-10-10)-(12-12-12)-(13-13-13)----13-12-8-------|
G|--------------------------------------------------|
D|--------------------------------------------------|
A|--------------------------------------------------|
E|--------------------------------------------------|

This is pretty close, but not perfect.  The (x-x-x) 
in the last section is to show the grouping of notes
that are hit 3 in a row.  I think it makes it easier
to see the progession.

God Bless and enjoy!
Brad Jere
bradjere at yahoo.com
 Comments (click here to add a non-facebook comment)
Home | FAQs | Privacy | Terms | Contact
Top 100 Tab Sites