Give Kudos?
Are you sure you want to give kudos to Cardinalfever?

Add To Songbook?
Are you sure you want to add this song to your songbook?


689 bands | 2,354 songs
Search: Register FREE! | Login
Browse Songs:
Browse Bands:
Tool Panel
Discuss This Song

1 2 3 4 5





I Have No Idea What Band This Is - Star Wars Theme (full Version) (Intro)
Submitter: Cardinalfever (0) on 11/22/17
Month Views: 51 | Total Views: 92
Help! We need a moderator for this artist. | Report This Song?
Song Tools

Comment

Songbook

Kudos

Show Chords

Print

e--------------------3-------------3-------------------|
B---------3----1-0------3----1-0-------3--1-0-1--------|
G-------0----------2-------------2---------------2-----|
D-0-0-0------------------------------------------------|
A------------------------------------------------------|
E------------------------------------------------------|
                                              (2x)

e------------------------------------------------------|
B------------------------------------------------------|
G------------5-4-2--0-0-2--4-2----------2-7-5-4-2-0----|
D-0-0-0-2--2--------------------0--4-0-------------0-7-|
A------------------------------------------------------|
E------------------------------------------------------|
 Comments (click here to add a non-facebook comment)
Home | FAQs | Privacy | Terms | Contact
Top 100 Tab Sites