Give Kudos?
Are you sure you want to give kudos to Cardinalfever?

Add To Songbook?
Are you sure you want to add this song to your songbook?


689 bands | 2,354 songs
Search: Register FREE! | Login
Browse Songs:
Browse Bands:
Tool Panel
Discuss This Song

1 2 3 4 5





Hymn - Amazing Grace (Tab)
Submitter: Cardinalfever (0) on 11/13/17 1 comment
Month Views: 60 | Total Views: 171
Help! We need a moderator for this artist. | Report This Song?
Song Tools

Comment

Songbook

Kudos

Show Chords

Print

e-------------------------------------------------
B--------0----0--------------------0----0----3----
G---0------0----2--0------------0----0-----2------
D-0--------------------2--0---0-------------------
A-------------------------------------------------
E-------------------------------------------------

e-------------------------------------------------
B--0--3---3--0-------------------------0-----0----
G---------------0-----0--0-----------0----0----2-0
D------------------2-------2--0---0---------------
A-------------------------------------------------
E-------------------------------------------------
 Comments (click here to add a non-facebook comment)
This being my first song I don't think I got the spacing right but once you get the tune in your head there shouldn't be a problem.
-Cardinalfever | 11/13/2017
Home | FAQs | Privacy | Terms | Contact
Top 100 Tab Sites