Give Kudos?
Are you sure you want to give kudos to jca4jc?

Add To Songbook?
Are you sure you want to add this song to your songbook?


695 bands | 2,383 songs
Search: Register FREE! | Login
Browse Songs:
Browse Bands:
Tool Panel
Discuss This Song

1 2 3 4 5



FFH - Every Now And Then (Tab)
Submitter: jca4jc (0) on 9/2/03 1 comment
Month Views: 2 | Total Views: 4,568
Moderator: chriscannon | Report This Song?
Song Tools

Comment

Songbook

Kudos

Show Chords

Print

There are basically 4 parts to this song.  I have 3 of them listed below,
still working on the third.  


Intro and Verses:  Part A
Bridge:  Part B
Chorus:  Part C


Each part is played repeatedly.  Just listen to the song to see when to
play each on.


Part A
e|-------3--------3-2------------------------------|
B|-0h1--1--1--1------1-0-3--3-------------3-3--3---|
G|-----0----0----0----2----0--2/4-2-0----0-0--0----|
D|----2---2-----0---------0-----------4-2----0-----|
A|-0-----------------------------------------------|
E|------------2----------3------------------3------|


Part B
e|-----3--------0--------0----0h2----2h3-2-0-------|
B|-3--3--3--2--2--2--1--1--1-----3----------3------|
G|---0----0---0--0-0---0--0-0-----2----------------|
D|--2---2----2--------2-------0----0-0-------------|
A|-0--------0--------0-----------------------------|
E|-------------------------------------------------|


Part C
e|-----3--------3---------3-----0h2----2h3-2-0-----|
B|-3--3-3-3----3-3-3-----3-3-3-----3----------3----|
G|---0---0-0--0---0-0---0---0-0-----2--------------|
D|--0--------0---------2--------0----0-0-----------|
A|----------2---------3----------------------------|
E|-3-----------------------------------------------|

Part D
Haven't figured it out yet.  :)
 Comments (click here to add a non-facebook comment)
Chris Allen Newnan, Ga writes: "Part D" is played like this
e|----------------------------3-----------------3---------0h2-
B|--3-----3-3---------------3---3---3---3-----3---3---3---3---
G|------0-------0-----0---0-------0---0-----0-------0---0-2---
D|----0-------0---0-----0-----------------2---------------0---
A|--3-------0---------------------------3-----------------0---
E|--------------------3---------------------------------------

Great job on the tab!! It's perfect! Gob Bless
-free30185 | 3/19/2004
Home | FAQs | Privacy | Terms | Contact
Top 100 Tab Sites