Give Kudos?
Are you sure you want to give kudos to Deleted Member?

Add To Songbook?
Are you sure you want to add this song to your songbook?


695 bands | 2,383 songs
Search: Register FREE! | Login
Browse Songs:
Browse Bands:
Tool Panel
Discuss This Song

1 2 3 4 5



Christmas Songs - The First Noel (fingerpicking) (Tab)
Submitter: Deleted Member (0) on 5/7/04
Month Views: 533 | Total Views: 20,190
Moderator: mallareski | Report This Song?
Song Tools

Comment

Songbook

Kudos

Show Chords

Print


E---------------------0-2--3---2---0---------0-2
D-0----------0-1-3---------------------3--------
G---2--0---2-------0---------0---0---0---0------
D-0------0------------0----2---0-------------0--
A----------------2-----------------3---2--------
E------3-----0-----------------------------3----

E-3---2---0-------0---2---3---------------------
D-------------3---------------3---1---0------0--
G---0---0---0---0---0---0---0---0---0---0------2
D-2---0---------------0---2---------------0--1--
A---------3---2---3-----------2---0-------------
E-------------------------------------3---------

E----------------3-2-0-2-3-5-7~-5~
B-0-----0-1-3---------------------
G-----2---------------------------
D-2-----------4--2-----0-2-4-5~-4~
A-----------2--------3------------
E---0---3-------------------------

E-3---2---0-------0---2---3-------------   
D-------------3---------------3---1---0~    
G---0---0---0---0---0---0---0---0---0---    
D-2---0---------------0---2-------------     
A---------3---2---3-----------2---0-----                
E-------------------------------------3~ 

x2 then finish with:(3)
                    (3)
                    (0)
                    (0)
                    (2)
                    (3)

 Comments (click here to add a non-facebook comment)
Home | FAQs | Privacy | Terms | Contact
Top 100 Tab Sites