Give Kudos?
Are you sure you want to give kudos to DougieLove?

Add To Songbook?
Are you sure you want to add this song to your songbook?


693 bands | 2,378 songs
Search: Register FREE! | Login
Browse Songs:
Browse Bands:
Tool Panel
Discuss This Song

1 2 3 4 5





Christmas Songs - Ave Maria (Tab)
Submitter: DougieLove (4) on 11/19/05
Month Views: 23 | Total Views: 8,426
Moderator: mallareski | Report This Song?
Song Tools

Comment

Songbook

Kudos

Show Chords

Print

AVE MARIA (Schubert)
12/8 time
Key of C

This song has been done by hundreds of artists in just about every key imaginable.
This is the rendition I do at church and weddings, in the key of C, for ease of playing.

C           Am           C           G7           Am          Am/G        
------------------------ 0----------------------- ------------------------
1-----------------0---1- ------------------3----- 1-----------------------
----0-----0-----2------- ----0-----0-----0-----0- ----2-----2-----2-----2-
--2-----2-----2-----2--- --2-----2-----3-----3--- --2-----2-----2-----2---
3-----3-----0-----0----- 3-----3----------------- 0-----0-----------------
------------------------ ------------3-----3----- ------------3-----3-----


Dm/F        G7           C                                    Am
--------0--------------- ------------------0----- 0-----------------0---2-
3---------3-1---0-----0- 1---------------------1- ----1---3-1-0-------1---
----2-------------2----- ----0-----0-----0---0--- --0-------------2-------
--0---0-------0-----0--- --2-----2-----2--------- --------------2---------
------------------------ 3-----3-----3-----3----- 3-----3-----0-----0-----
1-----------3-----3----- ------------------------ ------------------------


B7sus4      B7           G#dim7                   Am                      
------------------------ ----------------0-1----- --------------------0---
5-----------4---------0- 3---------1-0-3-----3-0- 1---------------------3-
----2-----2-----2------- ----1------------------- ----2-----2-----2-------
--4-----4-----4-----4--- --3-----3---0----------- --2-----2-----2---------
2-----2-----2-----2----- 2-----2-----------2----- 0-----0-----0-----0-----
------------------------ ------------------------ ------------------------


G           A7           G           D7/F#        G
----------------0-3-0--- ------------------------ ------------------------
3---------0---2-------2- 3---------------0-1-0--- ------------------------
----0-------2----------- ----0-----0---2-------2- 0-------------------0-0-
--0-----0--------------- --0-----0---------0----- ----0-----0-----0-------
------------0----------- ------------------------ --2-----2-----2---------
3-----3----------------- 3-----3-----2----------- 3-----3-----3-----3-----


G7                       C                        G                       
----------------------0- ----0------------------- ------------------1-0---
3---------3-3---2-3----- 3-----1-----------1----- 3---------3-3-2-3-----3-
----0---------0-----0--- --0-------0-----0-----0- ----0-------------------
--3-----3--------------- --------2-----2-----2--- --0-----0---------------
------------2-----2----- 3-----3-----2-----3----- ------------------------
3-----3----------------- ------------------------ 3-----3-----3-----3-----


Am                       G           E7           Dm                Dm/F
------------------------ ------------0---0-0---0- 3-----1-----------------
1-----------------1----- 3---------3---------3--- ----3-----3-----3-------
----2-----2-----2-----2- ----0---------1--------- --2-----2-----2-----2-2-
--2-----2-----2-----2--- --0-----0--------------- 0-----0-----0-----------
0-----0-----0-----0----- ------------------------ ------------------------
------------------------ 3-----3-----0-----0----- ------------------1-----


            F#dim7       G           G7           C           Am          
------------------------ ------------------------ ------------------------
3---------3-1-0-1-4-3-1- 3-----------0----------- 1-----------------0---1-
----2------------------- ----0-----0-----0-----0- ----0-----0-----2-------
--0-----0--------------- --0-----0-----3-----3--- --2-----2-----2-----2---
------------------0----- ------------------------ 3-----3-----0-----0-----
1-----1-----2----------- 3-----3-----3-----3----- ------------------------


C           G7           C           C7           F           Fm
0----------------------- ------------------------ ------------------------
------------------3---0- 1-----------1----------- 1-----------1-----------
----0-----0-----0------- ----0-----0-----3-----3- ----2-----2-----1-----1-
--2-----2-----3-----3--- --2-----2-----2-----2--- --3-----3-----3-----3---
3-----3----------------- 3-----3-----3-----3----- ------------------------
------------3-----3----- ------------------------ 1-----1-----1-----1-----


C
------------------------ 
1----------------------- 
0----------------------- 
2----------------------- 
3----------------------- 
------------------------ 

 Comments (click here to add a non-facebook comment)
Home | FAQs | Privacy | Terms | Contact
Top 100 Tab Sites